ISO-10303-21;
HEADER;
FILE_DESCRIPTION (( 'STEP AP203' ),
    '1' );
FILE_NAME ('P10A.STEP',
    '2020-07-27T12:37:21',
    ( '' ),
    ( '' ),
    'SwSTEP 2.0',
    'SolidWorks 2019',
    '' );
FILE_SCHEMA (( 'CONFIG_CONTROL_DESIGN' ));
ENDSEC;

DATA;
#1 = DIRECTION ( 'NONE',  ( 0.0000000000000000000, 1.000000000000000000, 0.0000000000000000000 ) ) ;
#2 = EDGE_LOOP ( 'NONE', ( #214, #23, #95, #110 ) ) ;
#3 = ORIENTED_EDGE ( 'NONE', *, *, #136, .T. ) ;
#4 = CARTESIAN_POINT ( 'NONE',  ( 0.0000000000000000000, 0.2000000000000000111, 0.0000000000000000000 ) ) ;
#5 = DESIGN_CONTEXT ( 'detailed design', #82, 'design' ) ;
#6 = CARTESIAN_POINT ( 'NONE',  ( 0.0000000000000000000, 0.0000000000000000000, 0.0000000000000000000 ) ) ;
#7 = EDGE_CURVE ( 'NONE', #43, #61, #96, .T. ) ;
#8 = DIRECTION ( 'NONE',  ( 0.0000000000000000000, 0.0000000000000000000, 1.000000000000000000 ) ) ;
#9 = CARTESIAN_POINT ( 'NONE',  ( 0.0000000000000000000, 0.2000000000000000111, 0.0000000000000000000 ) ) ;
#10 = AXIS2_PLACEMENT_3D ( 'NONE', #6, #26, #163 ) ;
#11 = FACE_OUTER_BOUND ( 'NONE', #194, .T. ) ;
#12 = APPROVAL ( #54, 'UNSPECIFIED' ) ;
#13 = DIRECTION ( 'NONE',  ( -0.0000000000000000000, -1.000000000000000000, -0.0000000000000000000 ) ) ;
#14 = COORDINATED_UNIVERSAL_TIME_OFFSET ( 5, 0, .BEHIND. ) ;
#15 = CC_DESIGN_PERSON_AND_ORGANIZATION_ASSIGNMENT ( #166, #203, ( #86 ) ) ;
#16 = COORDINATED_UNIVERSAL_TIME_OFFSET ( 5, 0, .BEHIND. ) ;
#17 = VERTEX_POINT ( 'NONE', #57 ) ;
#18 = AXIS2_PLACEMENT_3D ( 'NONE', #180, #241, #8 ) ;
#19 =( NAMED_UNIT ( * ) PLANE_ANGLE_UNIT ( ) SI_UNIT ( $, .RADIAN. ) );
#20 = EDGE_LOOP ( 'NONE', ( #192, #211, #44, #208 ) ) ;
#21 = PERSON_AND_ORGANIZATION ( #105, #122 ) ;
#22 = ORIENTED_EDGE ( 'NONE', *, *, #143, .T. ) ;
#23 = ORIENTED_EDGE ( 'NONE', *, *, #39, .F. ) ;
#24 = DIRECTION ( 'NONE',  ( 0.0000000000000000000, 1.000000000000000000, 0.0000000000000000000 ) ) ;
#25 = DIRECTION ( 'NONE',  ( 0.0000000000000000000, 0.0000000000000000000, 1.000000000000000000 ) ) ;
#26 = DIRECTION ( 'NONE',  ( 0.0000000000000000000, 1.000000000000000000, 0.0000000000000000000 ) ) ;
#27 = VECTOR ( 'NONE', #13, 39.37007874015748143 ) ;
#28 = DIRECTION ( 'NONE',  ( 0.0000000000000000000, 0.0000000000000000000, 1.000000000000000000 ) ) ;
#29 = CARTESIAN_POINT ( 'NONE',  ( 0.0000000000000000000, 0.0000000000000000000, 0.1250000000000000000 ) ) ;
#30 = CIRCLE ( 'NONE', #154, 0.3140000000000000013 ) ;
#31 = CC_DESIGN_SECURITY_CLASSIFICATION ( #86, ( #40 ) ) ;
#32 = APPLICATION_CONTEXT ( 'configuration controlled 3d designs of mechanical parts and assemblies' ) ;
#33 = APPROVAL ( #172, 'UNSPECIFIED' ) ;
#34 = CARTESIAN_POINT ( 'NONE',  ( 0.0000000000000000000, 0.2000000000000000111, 0.1250000000000000000 ) ) ;
#35 = APPROVAL_ROLE ( '' ) ;
#36 = CC_DESIGN_PERSON_AND_ORGANIZATION_ASSIGNMENT ( #252, #235, ( #40 ) ) ;
#37 = DIRECTION ( 'NONE',  ( 0.0000000000000000000, 0.0000000000000000000, 1.000000000000000000 ) ) ;
#38 = APPLICATION_PROTOCOL_DEFINITION ( 'international standard', 'config_control_design', 1994, #82 ) ;
#39 = EDGE_CURVE ( 'NONE', #42, #60, #30, .T. ) ;
#40 = PRODUCT_DEFINITION_FORMATION_WITH_SPECIFIED_SOURCE ( 'ANY', '', #102, .NOT_KNOWN. ) ;
#41 = APPROVAL_ROLE ( '' ) ;
#42 = VERTEX_POINT ( 'NONE', #118 ) ;
#43 = VERTEX_POINT ( 'NONE', #100 ) ;
#44 = ORIENTED_EDGE ( 'NONE', *, *, #153, .T. ) ;
#45 = CARTESIAN_POINT ( 'NONE',  ( 0.0000000000000000000, 0.2000000000000000111, 0.0000000000000000000 ) ) ;
#46 = FACE_BOUND ( 'NONE', #71, .T. ) ;
#47 = EDGE_CURVE ( 'NONE', #43, #17, #222, .T. ) ;
#48 = CARTESIAN_POINT ( 'NONE',  ( 0.0000000000000000000, 0.0000000000000000000, 0.1250000000000000000 ) ) ;
#49 = DIRECTION ( 'NONE',  ( 0.0000000000000000000, 0.0000000000000000000, 1.000000000000000000 ) ) ;
#50 = AXIS2_PLACEMENT_3D ( 'NONE', #157, #238, #220 ) ;
#51 = DIRECTION ( 'NONE',  ( 0.0000000000000000000, 0.0000000000000000000, -1.000000000000000000 ) ) ;
#52 = APPROVAL_DATE_TIME ( #106, #12 ) ;
#53 = MECHANICAL_CONTEXT ( 'NONE', #32, 'mechanical' ) ;
#54 = APPROVAL_STATUS ( 'not_yet_approved' ) ;
#55 = CARTESIAN_POINT ( 'NONE',  ( 0.0000000000000000000, 0.0000000000000000000, 0.0000000000000000000 ) ) ;
#56 = DATE_AND_TIME ( #247, #181 ) ;
#57 = CARTESIAN_POINT ( 'NONE',  ( 1.530808498934191509E-17, 0.2000000000000000111, -0.1250000000000000000 ) ) ;
#58 = SECURITY_CLASSIFICATION_LEVEL ( 'unclassified' ) ;
#59 = CC_DESIGN_DATE_AND_TIME_ASSIGNMENT ( #56, #130, ( #75 ) ) ;
#60 = VERTEX_POINT ( 'NONE', #244 ) ;
#61 = VERTEX_POINT ( 'NONE', #29 ) ;
#62 = FACE_OUTER_BOUND ( 'NONE', #134, .T. ) ;
#63 = AXIS2_PLACEMENT_3D ( 'NONE', #45, #228, #51 ) ;
#64 = CYLINDRICAL_SURFACE ( 'NONE', #189, 0.1250000000000000000 ) ;
#65 = LINE ( 'NONE', #178, #85 ) ;
#66 = CARTESIAN_POINT ( 'NONE',  ( 0.0000000000000000000, 0.0000000000000000000, 0.0000000000000000000 ) ) ;
#67 = VECTOR ( 'NONE', #120, 39.37007874015748143 ) ;
#68 = LOCAL_TIME ( 8, 37, 21.00000000000000000, #230 ) ;
#69 = DIRECTION ( 'NONE',  ( -0.0000000000000000000, 1.000000000000000000, -0.0000000000000000000 ) ) ;
#70 =( LENGTH_UNIT ( ) NAMED_UNIT ( * ) SI_UNIT ( $, .METRE. ) );
#71 = EDGE_LOOP ( 'NONE', ( #237, #149 ) ) ;
#72 = ADVANCED_FACE ( 'NONE', ( #103 ), #239, .T. ) ;
#73 = PERSON_AND_ORGANIZATION_ROLE ( 'creator' ) ;
#74 = ORIENTED_EDGE ( 'NONE', *, *, #7, .T. ) ;
#75 = PRODUCT_DEFINITION ( 'UNKNOWN', '', #40, #5 ) ;
#76 =( NAMED_UNIT ( * ) SI_UNIT ( $, .STERADIAN. ) SOLID_ANGLE_UNIT ( ) );
#77 = DIRECTION ( 'NONE',  ( 0.0000000000000000000, 0.0000000000000000000, 1.000000000000000000 ) ) ;
#78 = VERTEX_POINT ( 'NONE', #160 ) ;
#79 = CYLINDRICAL_SURFACE ( 'NONE', #50, 0.1250000000000000000 ) ;
#80 = PLANE ( 'NONE',  #107 ) ;
#81 = DIRECTION ( 'NONE',  ( 0.0000000000000000000, 1.000000000000000000, 0.0000000000000000000 ) ) ;
#82 = APPLICATION_CONTEXT ( 'configuration controlled 3d designs of mechanical parts and assemblies' ) ;
#83 = PRODUCT_DEFINITION_SHAPE ( 'NONE', 'NONE',  #75 ) ;
#84 = DIRECTION ( 'NONE',  ( 0.0000000000000000000, 0.0000000000000000000, 1.000000000000000000 ) ) ;
#85 = VECTOR ( 'NONE', #87, 39.37007874015748143 ) ;
#86 = SECURITY_CLASSIFICATION ( '', '', #58 ) ;
#87 = DIRECTION ( 'NONE',  ( -0.0000000000000000000, -1.000000000000000000, -0.0000000000000000000 ) ) ;
#88 = COORDINATED_UNIVERSAL_TIME_OFFSET ( 5, 0, .BEHIND. ) ;
#89 = DATE_AND_TIME ( #104, #68 ) ;
#90 = ORIENTED_EDGE ( 'NONE', *, *, #7, .F. ) ;
#91 = PERSON_AND_ORGANIZATION ( #105, #122 ) ;
#92 = ORIENTED_EDGE ( 'NONE', *, *, #39, .T. ) ;
#93 = PERSON_AND_ORGANIZATION_ROLE ( 'design_owner' ) ;
#94 = ORIENTED_EDGE ( 'NONE', *, *, #47, .T. ) ;
#95 = ORIENTED_EDGE ( 'NONE', *, *, #246, .T. ) ;
#96 = CIRCLE ( 'NONE', #185, 0.1250000000000000000 ) ;
#97 =( GEOMETRIC_REPRESENTATION_CONTEXT ( 3 ) GLOBAL_UNCERTAINTY_ASSIGNED_CONTEXT ( ( #116 ) ) GLOBAL_UNIT_ASSIGNED_CONTEXT ( ( #146, #19, #76 ) ) REPRESENTATION_CONTEXT ( 'NONE', 'WORKASPACE' ) );
#98 = DIRECTION ( 'NONE',  ( 0.0000000000000000000, -0.0000000000000000000, 1.000000000000000000 ) ) ;
#99 = CARTESIAN_POINT ( 'NONE',  ( 0.0000000000000000000, 0.0000000000000000000, 0.0000000000000000000 ) ) ;
#100 = CARTESIAN_POINT ( 'NONE',  ( 1.530808498934191509E-17, 0.0000000000000000000, -0.1250000000000000000 ) ) ;
#101 = LINE ( 'NONE', #48, #219 ) ;
#102 = PRODUCT ( 'P10A', 'P10A', '', ( #53 ) ) ;
#103 = FACE_OUTER_BOUND ( 'NONE', #2, .T. ) ;
#104 = CALENDAR_DATE ( 2020, 27, 7 ) ;
#105 = PERSON ( 'UNSPECIFIED', 'UNSPECIFIED', 'UNSPECIFIED', ('UNSPECIFIED'), ('UNSPECIFIED'), ('UNSPECIFIED') ) ;
#106 = DATE_AND_TIME ( #206, #139 ) ;
#107 = AXIS2_PLACEMENT_3D ( 'NONE', #125, #24, #138 ) ;
#108 = SHAPE_DEFINITION_REPRESENTATION ( #83, #164 ) ;
#109 = APPLICATION_PROTOCOL_DEFINITION ( 'international standard', 'config_control_design', 1994, #32 ) ;
#110 = ORIENTED_EDGE ( 'NONE', *, *, #176, .T. ) ;
#111 = PERSON_AND_ORGANIZATION ( #105, #122 ) ;
#112 = AXIS2_PLACEMENT_3D ( 'NONE', #66, #199, #28 ) ;
#113 = CC_DESIGN_APPROVAL ( #12, ( #40 ) ) ;
#114 = APPROVAL ( #193, 'UNSPECIFIED' ) ;
#115 = DATE_TIME_ROLE ( 'classification_date' ) ;
#116 = UNCERTAINTY_MEASURE_WITH_UNIT (LENGTH_MEASURE( 1.000000000000000082E-05 ), #146, 'distance_accuracy_value', 'NONE');
#117 = ADVANCED_FACE ( 'NONE', ( #46, #11 ), #123, .T. ) ;
#118 = CARTESIAN_POINT ( 'NONE',  ( 0.0000000000000000000, 0.2000000000000000111, -0.3140000000000000013 ) ) ;
#119 = EDGE_CURVE ( 'NONE', #17, #251, #195, .T. ) ;
#120 = DIRECTION ( 'NONE',  ( -0.0000000000000000000, 1.000000000000000000, -0.0000000000000000000 ) ) ;
#121 = DIRECTION ( 'NONE',  ( 0.0000000000000000000, 0.0000000000000000000, 1.000000000000000000 ) ) ;
#122 = ORGANIZATION ( 'UNSPECIFIED', 'UNSPECIFIED', '' ) ;
#123 = PLANE ( 'NONE',  #126 ) ;
#124 = CIRCLE ( 'NONE', #112, 0.3140000000000000013 ) ;
#125 = CARTESIAN_POINT ( 'NONE',  ( 0.0000000000000000000, 0.0000000000000000000, 0.0000000000000000000 ) ) ;
#126 = AXIS2_PLACEMENT_3D ( 'NONE', #4, #81, #98 ) ;
#127 = ADVANCED_FACE ( 'NONE', ( #62 ), #64, .F. ) ;
#128 = PERSON_AND_ORGANIZATION_ROLE ( 'creator' ) ;
#129 = EDGE_LOOP ( 'NONE', ( #133, #216 ) ) ;
#130 = DATE_TIME_ROLE ( 'creation_date' ) ;
#131 = CARTESIAN_POINT ( 'NONE',  ( 0.0000000000000000000, 0.2000000000000000111, 0.0000000000000000000 ) ) ;
#132 = CALENDAR_DATE ( 2020, 27, 7 ) ;
#133 = ORIENTED_EDGE ( 'NONE', *, *, #176, .F. ) ;
#134 = EDGE_LOOP ( 'NONE', ( #90, #94, #135, #234 ) ) ;
#135 = ORIENTED_EDGE ( 'NONE', *, *, #119, .T. ) ;
#136 = EDGE_CURVE ( 'NONE', #60, #248, #65, .T. ) ;
#137 = CIRCLE ( 'NONE', #202, 0.3140000000000000013 ) ;
#138 = DIRECTION ( 'NONE',  ( 0.0000000000000000000, -0.0000000000000000000, 1.000000000000000000 ) ) ;
#139 = LOCAL_TIME ( 8, 37, 21.00000000000000000, #14 ) ;
#140 = DIRECTION ( 'NONE',  ( -0.0000000000000000000, 1.000000000000000000, -0.0000000000000000000 ) ) ;
#141 = CYLINDRICAL_SURFACE ( 'NONE', #63, 0.3140000000000000013 ) ;
#142 = CARTESIAN_POINT ( 'NONE',  ( 0.0000000000000000000, 0.2000000000000000111, 0.0000000000000000000 ) ) ;
#143 = EDGE_CURVE ( 'NONE', #61, #43, #245, .T. ) ;
#144 = FACE_OUTER_BOUND ( 'NONE', #196, .T. ) ;
#145 = CARTESIAN_POINT ( 'NONE',  ( 0.0000000000000000000, 0.0000000000000000000, 0.0000000000000000000 ) ) ;
#146 =( CONVERSION_BASED_UNIT ( 'INCH', #167 ) LENGTH_UNIT ( ) NAMED_UNIT ( #179 ) );
#147 = DATE_AND_TIME ( #152, #243 ) ;
#148 = APPROVAL_PERSON_ORGANIZATION ( #21, #114, #41 ) ;
#149 = ORIENTED_EDGE ( 'NONE', *, *, #119, .F. ) ;
#150 = APPROVAL_DATE_TIME ( #147, #33 ) ;
#151 = PRODUCT_RELATED_PRODUCT_CATEGORY ( 'detail', '', ( #102 ) ) ;
#152 = CALENDAR_DATE ( 2020, 27, 7 ) ;
#153 = EDGE_CURVE ( 'NONE', #61, #251, #101, .T. ) ;
#154 = AXIS2_PLACEMENT_3D ( 'NONE', #131, #1, #77 ) ;
#155 = CC_DESIGN_APPROVAL ( #33, ( #75 ) ) ;
#156 = ORIENTED_EDGE ( 'NONE', *, *, #184, .T. ) ;
#157 = CARTESIAN_POINT ( 'NONE',  ( 0.0000000000000000000, 0.0000000000000000000, 0.0000000000000000000 ) ) ;
#158 = EDGE_CURVE ( 'NONE', #60, #42, #217, .T. ) ;
#159 = CARTESIAN_POINT ( 'NONE',  ( 1.530808498934191509E-17, 0.0000000000000000000, -0.1250000000000000000 ) ) ;
#160 = CARTESIAN_POINT ( 'NONE',  ( 0.0000000000000000000, 0.0000000000000000000, -0.3140000000000000013 ) ) ;
#161 = FACE_BOUND ( 'NONE', #236, .T. ) ;
#162 = AXIS2_PLACEMENT_3D ( 'NONE', #142, #198, #25 ) ;
#163 = DIRECTION ( 'NONE',  ( 0.0000000000000000000, 0.0000000000000000000, 1.000000000000000000 ) ) ;
#164 = ADVANCED_BREP_SHAPE_REPRESENTATION ( 'P10A', ( #226, #250 ), #97 ) ;
#165 = APPROVAL_PERSON_ORGANIZATION ( #231, #33, #207 ) ;
#166 = PERSON_AND_ORGANIZATION ( #105, #122 ) ;
#167 = LENGTH_MEASURE_WITH_UNIT ( LENGTH_MEASURE( 0.02539999999999999897 ), #70 );
#168 = CC_DESIGN_PERSON_AND_ORGANIZATION_ASSIGNMENT ( #111, #128, ( #40 ) ) ;
#169 = CLOSED_SHELL ( 'NONE', ( #127, #171, #72, #117, #210, #221 ) ) ;
#170 = CARTESIAN_POINT ( 'NONE',  ( 3.845390949322689184E-17, 0.0000000000000000000, 0.3140000000000000013 ) ) ;
#171 = ADVANCED_FACE ( 'NONE', ( #144 ), #141, .T. ) ;
#172 = APPROVAL_STATUS ( 'not_yet_approved' ) ;
#173 = DIRECTION ( 'NONE',  ( 0.0000000000000000000, 1.000000000000000000, 0.0000000000000000000 ) ) ;
#174 = ORIENTED_EDGE ( 'NONE', *, *, #246, .F. ) ;
#175 = CIRCLE ( 'NONE', #213, 0.1250000000000000000 ) ;
#176 = EDGE_CURVE ( 'NONE', #78, #248, #137, .T. ) ;
#177 = FACE_OUTER_BOUND ( 'NONE', #20, .T. ) ;
#178 = CARTESIAN_POINT ( 'NONE',  ( 3.845390949322689184E-17, 0.2000000000000000111, 0.3140000000000000013 ) ) ;
#179 = DIMENSIONAL_EXPONENTS ( 1.000000000000000000, 0.0000000000000000000, 0.0000000000000000000, 0.0000000000000000000, 0.0000000000000000000, 0.0000000000000000000, 0.0000000000000000000 ) ;
#180 = CARTESIAN_POINT ( 'NONE',  ( 0.0000000000000000000, 0.2000000000000000111, 0.0000000000000000000 ) ) ;
#181 = LOCAL_TIME ( 8, 37, 21.00000000000000000, #229 ) ;
#182 = DIRECTION ( 'NONE',  ( 0.0000000000000000000, 1.000000000000000000, 0.0000000000000000000 ) ) ;
#183 = DIRECTION ( 'NONE',  ( -0.0000000000000000000, -1.000000000000000000, -0.0000000000000000000 ) ) ;
#184 = EDGE_CURVE ( 'NONE', #248, #78, #124, .T. ) ;
#185 = AXIS2_PLACEMENT_3D ( 'NONE', #55, #173, #191 ) ;
#186 = LOCAL_TIME ( 8, 37, 21.00000000000000000, #88 ) ;
#187 = DIRECTION ( 'NONE',  ( 1.000000000000000000, 0.0000000000000000000, 0.0000000000000000000 ) ) ;
#188 = APPROVAL_DATE_TIME ( #89, #114 ) ;
#189 = AXIS2_PLACEMENT_3D ( 'NONE', #99, #140, #49 ) ;
#190 = PERSON_AND_ORGANIZATION ( #105, #122 ) ;
#191 = DIRECTION ( 'NONE',  ( 0.0000000000000000000, 0.0000000000000000000, 1.000000000000000000 ) ) ;
#192 = ORIENTED_EDGE ( 'NONE', *, *, #47, .F. ) ;
#193 = APPROVAL_STATUS ( 'not_yet_approved' ) ;
#194 = EDGE_LOOP ( 'NONE', ( #92, #215 ) ) ;
#195 = CIRCLE ( 'NONE', #162, 0.1250000000000000000 ) ;
#196 = EDGE_LOOP ( 'NONE', ( #232, #3, #156, #174 ) ) ;
#197 = DIRECTION ( 'NONE',  ( 0.0000000000000000000, 1.000000000000000000, 0.0000000000000000000 ) ) ;
#198 = DIRECTION ( 'NONE',  ( 0.0000000000000000000, 1.000000000000000000, 0.0000000000000000000 ) ) ;
#199 = DIRECTION ( 'NONE',  ( 0.0000000000000000000, 1.000000000000000000, 0.0000000000000000000 ) ) ;
#200 = EDGE_CURVE ( 'NONE', #251, #17, #175, .T. ) ;
#201 = DIRECTION ( 'NONE',  ( 0.0000000000000000000, 0.0000000000000000000, -1.000000000000000000 ) ) ;
#202 = AXIS2_PLACEMENT_3D ( 'NONE', #224, #182, #121 ) ;
#203 = PERSON_AND_ORGANIZATION_ROLE ( 'classification_officer' ) ;
#204 = LINE ( 'NONE', #233, #27 ) ;
#205 = AXIS2_PLACEMENT_3D ( 'NONE', #242, #183, #201 ) ;
#206 = CALENDAR_DATE ( 2020, 27, 7 ) ;
#207 = APPROVAL_ROLE ( '' ) ;
#208 = ORIENTED_EDGE ( 'NONE', *, *, #200, .T. ) ;
#209 = PERSON_AND_ORGANIZATION ( #105, #122 ) ;
#210 = ADVANCED_FACE ( 'NONE', ( #161, #225 ), #80, .F. ) ;
#211 = ORIENTED_EDGE ( 'NONE', *, *, #143, .F. ) ;
#212 = DATE_AND_TIME ( #132, #186 ) ;
#213 = AXIS2_PLACEMENT_3D ( 'NONE', #9, #197, #84 ) ;
#214 = ORIENTED_EDGE ( 'NONE', *, *, #136, .F. ) ;
#215 = ORIENTED_EDGE ( 'NONE', *, *, #158, .T. ) ;
#216 = ORIENTED_EDGE ( 'NONE', *, *, #184, .F. ) ;
#217 = CIRCLE ( 'NONE', #18, 0.3140000000000000013 ) ;
#218 = CC_DESIGN_DATE_AND_TIME_ASSIGNMENT ( #212, #115, ( #86 ) ) ;
#219 = VECTOR ( 'NONE', #69, 39.37007874015748143 ) ;
#220 = DIRECTION ( 'NONE',  ( 0.0000000000000000000, 0.0000000000000000000, 1.000000000000000000 ) ) ;
#221 = ADVANCED_FACE ( 'NONE', ( #177 ), #79, .F. ) ;
#222 = LINE ( 'NONE', #159, #67 ) ;
#223 = CC_DESIGN_PERSON_AND_ORGANIZATION_ASSIGNMENT ( #91, #73, ( #75 ) ) ;
#224 = CARTESIAN_POINT ( 'NONE',  ( 0.0000000000000000000, 0.0000000000000000000, 0.0000000000000000000 ) ) ;
#225 = FACE_OUTER_BOUND ( 'NONE', #129, .T. ) ;
#226 = MANIFOLD_SOLID_BREP ( 'Cut-Extrude2', #169 ) ;
#227 = CC_DESIGN_APPROVAL ( #114, ( #86 ) ) ;
#228 = DIRECTION ( 'NONE',  ( -0.0000000000000000000, -1.000000000000000000, -0.0000000000000000000 ) ) ;
#229 = COORDINATED_UNIVERSAL_TIME_OFFSET ( 5, 0, .BEHIND. ) ;
#230 = COORDINATED_UNIVERSAL_TIME_OFFSET ( 5, 0, .BEHIND. ) ;
#231 = PERSON_AND_ORGANIZATION ( #105, #122 ) ;
#232 = ORIENTED_EDGE ( 'NONE', *, *, #158, .F. ) ;
#233 = CARTESIAN_POINT ( 'NONE',  ( 0.0000000000000000000, 0.2000000000000000111, -0.3140000000000000013 ) ) ;
#234 = ORIENTED_EDGE ( 'NONE', *, *, #153, .F. ) ;
#235 = PERSON_AND_ORGANIZATION_ROLE ( 'design_supplier' ) ;
#236 = EDGE_LOOP ( 'NONE', ( #22, #74 ) ) ;
#237 = ORIENTED_EDGE ( 'NONE', *, *, #200, .F. ) ;
#238 = DIRECTION ( 'NONE',  ( -0.0000000000000000000, 1.000000000000000000, -0.0000000000000000000 ) ) ;
#239 = CYLINDRICAL_SURFACE ( 'NONE', #205, 0.3140000000000000013 ) ;
#240 = CC_DESIGN_PERSON_AND_ORGANIZATION_ASSIGNMENT ( #190, #93, ( #102 ) ) ;
#241 = DIRECTION ( 'NONE',  ( 0.0000000000000000000, 1.000000000000000000, 0.0000000000000000000 ) ) ;
#242 = CARTESIAN_POINT ( 'NONE',  ( 0.0000000000000000000, 0.2000000000000000111, 0.0000000000000000000 ) ) ;
#243 = LOCAL_TIME ( 8, 37, 21.00000000000000000, #16 ) ;
#244 = CARTESIAN_POINT ( 'NONE',  ( 3.845390949322689184E-17, 0.2000000000000000111, 0.3140000000000000013 ) ) ;
#245 = CIRCLE ( 'NONE', #10, 0.1250000000000000000 ) ;
#246 = EDGE_CURVE ( 'NONE', #42, #78, #204, .T. ) ;
#247 = CALENDAR_DATE ( 2020, 27, 7 ) ;
#248 = VERTEX_POINT ( 'NONE', #170 ) ;
#249 = APPROVAL_PERSON_ORGANIZATION ( #209, #12, #35 ) ;
#250 = AXIS2_PLACEMENT_3D ( 'NONE', #145, #37, #187 ) ;
#251 = VERTEX_POINT ( 'NONE', #34 ) ;
#252 = PERSON_AND_ORGANIZATION ( #105, #122 ) ;
ENDSEC;
END-ISO-10303-21;
